The Birthday Massacre - Down - Скачать mp3 бесплатно

Intro
G|------------------------------------------------------------|
D|------------------------------------------------------------|
A|3-3-3----------3-3-3----------0-0-0----------0-0-0----------|
D|------------------------------------------------------------|

G|----------------------------------------------------------------|
D|----------------------------------------------------------------|
A|3-3-3-3-3-3-3-3-3-3-3-3-3-3-3-3-3-3-3-3-3-3-3-3-3-3-3-3-3-3-3-3-|
D|----------------------------------------------------------------|

G|----------------------------------------------------------------|
D|----------------------------------------------------------------|
A|0-0-0-0-0-0-0-0-0-0-0-0-0-0-0-0-0-0-0-0-0-0-0-0-0-0-0-0-0-0-0-0-|
D|----------------------------------------------------------------|

G|------------------------------------------------------------|
D|------------------------------------------------------------|
A|3-3-3----------3-3-3----------0-0-0----------0-0-0----------|
D|------------------------------------------------------------|

Pre-Verse
G|----------------------------------------------------------------|
D|----------------------------------------------------------------|
A|----------------------------------------------------------------|
D|10--10--10--10--10--10--10--10--10--10--10--10--10--10--10--10--|

G|----------------------------------------------------------------|
D|----------------------------------------------------------------|
A|----------------------------------------------------------------|
D|7-7-7-7-7-7-7-7-7-7-7-7-7-7-7-7-7-7-7-7-7-7-7-7-7-7-7-7-7-7-7-7-|

Verse
G|----------------------------------------------------------------|
D|--------------------------------------------------------2-0-----|
A|3-3-3-3-3-3-3-3-3-3-3-3-3-3-3-3-3-3-3-3-3-3-3-3-3-3-3-3-----3-2-|
D|----------------------------------------------------------------|

G|----------------------------------------------------------------|
D|----------------------------------------------------------------|
A|0-0-0-0-0-0-0-0-0-0-0-0-0-0-0-0-0-0-0-0-0-0-0-0-0-0-0-0-0-0-0-0-|
D|----------------------------------------------------------------|

G|----------------------------------------------------------------|
D|--------------------------------------------------------2-0-----|
A|3-3-3-3-3-3-3-3-3-3-3-3-3-3-3-3-3-3-3-3-3-3-3-3-3-3-3-3-----3-2-|
D|----------------------------------------------------------------|

G|----------------------------------------------------------------|
D|----------------------------------------------------------------|
A|0-0-0-0-0-0-0-0-0-0-0-0-0-0-0-0-0-0-0-0-0-0-0-0-0-0-0-0-0-0-0-0-|
D|----------------------------------------------------------------|

Pre-Chorus
G|----------------------------------------------------------------|
D|----------------------------------------------------------------|
A|----------------------------------------------------------------|
D|10--10--10--10--10--10--10--10--10--10--10--10--10--10--10--10--|

G|----------------------------------------------------------------|
D|----------------------------------------------------------------|
A|----------------------------------------------------------------|
D|7-7-7-7-7-7-7-7-7-7-7-7-7-7-7-7-7-7-7-7-7-7-7-7-7-7-7-7-7-7-7-7-|

Chorus
G|----------------------------------------------------------------|
D|----------------------------------------------------------------|
A|0-0-0-0-0-0-0-0-2-2-2-2-2-2-2-2-----------------5-5-5-5-5-5-5-5-|
D|--------------------------------4-4-4-4-4-4-4-4-----------------|

G|----------------------------------------------------------------|
D|----------------------------------------------------------------|
A|0-0-0-0-0-0-0-0-2-2-2-2-2-2-2-2---------------------------------|
D|--------------------------------4-4-4-4-4-4-4-4-4-4-4-4-4-4-4-4-|

G|---------------------------------------

Лучшие MP3 треки, добавленные в наш музыкальный каталог за 24/01/2017