System Of A Down - Toxicity - Скачать mp3 бесплатно

Intro

|-----------------------------------------------|
|-----------------------------------------------|
|-----------------------------------------------|
|-------7------7-----7-----7-----5-----5--------|
|----5-----5------5-----5-----5-----7-----------|
|-----------------------------------------------|

|-----------------------------------------------|
|-----------------------------------------------|
|-----------------------------------------------|
|-------10-----10-----10-----10-----10-----10---|
|---/8------8------8------8------8------8-------|
|-----------------------------------------------|

|-----------------------------------------------|
|-----------------------------------------------|
|-----------------------------------------------|
|-------7-----5-----5-----5-----7-----7---------|
|----5-----5-----7-----8-----8-----5------------|
|-----------------------------------------------|

|-----------------------------------------------|
|-----------------------------------------------|
|-----------------------------------------------|
|----------10-----12-----12--10-----10--8-----8-|
|---(5)/8------8------8----------8---------8----|
|-----------------------------------------------|

|-----------------------------------------------|
|-----------------------------------------------|
|*---------------------------------------------*|
|*-----------------------8---8-----7-----7-7-7-*|
|---0------------0-------8---8-----7-----7-7-7--|
|---0----3-2-0-2-0-------8---8-----7-----7-7-7--| x2

|-------------------------------------------------|
|-------------------------------------------------|
|-------------------------------------------------|
|-------------------------------------------------|
|-------------------------------------------------|
|-3-2-0-2-0-0-3-2-0-2-0-0-3-2-0-2-0-0-3-2-0-2-0-0-|

|-----------------------------------------------|
|-----------------------------------------------|
|-----------------------------------------------|
|---8---8-8-8---7---7-7-7-----------------------|
|---8---8-8-8---7---7-7-7-----------------------|
|---8---8-8-8---7---7-7-7-----------------------|

Verse

|-----------------------------------------------|
|-----------------------------------------------|
|-----------------------------------------------|
|-----------------------------------------------|
|------0-----0-----0-----0-----0-----0----------|
|---0-----0-----0-----0-----0-----0-------------|

|-----------------------------------------------|
|-----------------------------------------------|
|-----------------------------------------------|
|-----------------------------------------------|
|------3-----3-----3-----3-----3-----3----------|
|---3-----3-----3-----3-----3-----3-------------|

|-----------------------------------------------|
|-----------------------------------------------|
|-----------------------------------------------|
|-----------------------------------------------|
|------0-----0-----0--1-----1-0-----0-----------|
|---0-----0-----0--------0-------0--------------|

|-----------------------------------------------|
|-----------------------------------------------|
|-----------------------------------------------|
|-----------------------------------------------|
|-------3-----3-----3-----3-----3-----3---------|
|---/3-----3-----3-----3-----3-----3------------|

|-----------------------------------------------|
|-----------------------------------------------|
|-------14------14------14----------------------|
|---12------12------12--------------------------|
|-----------------------------------------------|
|-----------------------------------------------|

|-----------------------------------------------|
|-----------------------------------------------|
|--------14------14------14---------------------|
|----12------12------12---------

Лучшие MP3 треки, добавленные в наш музыкальный каталог за 06/12/2016