|--------------------------------|--------------------------------
|--------------------------------|--------------------------------
|--------------------------------|--------------------------------
|-----0-----0-----0-----0-----0--|-----0-----0-----0-----0-----0--
|---0-----0-----0-----0-----0----|---0-----0-----0-----0-----0----
|-3-----2-----0-----0-----0-----0|-5-----3-----2-----2-----2-----2

|--------------------------------|--------------------------------
|--------------------------------|--------------------------------
|--------------------------------|--------------------------------
|-----0-----0-----0-----0-------0|-----0-----0-----0-----0-----0--
|---0-----0-----0-----0-----0----|---0-----0-----0-----0-----0----
|-3-----5-----7-----8-----7---5--|-3-----2-----0-----0-----0-----0

|----------------------------------|-----------------------------------
|----------------------------------|-----------------------------------
|----------------------------------|-----------------------------------
|------0------0-----0-----0-----0--|------0------0-----0-----0-----0---
|----0------0-----0-----0-----0----|----0------0-----0-----0-----0-----
|-12-----10-----7-----7-----7-----7|/14-----10-----7-----7-----7-----7-

|------------------------------------|---------------------------------
|------------------------------------|---------------------------------
|------------------------------------|---------------------------------
|------0------0------0------0-------0|-----0---------------------------
|----0------0------0------0----------|---0------0----0---0---0---0---0-
|-12-----14-----15-----17-----15-14--|12-----10----7---7---7---7---7---

VERSES - w/dist.
|----------|---------|-----------------------|-----------------------|
|----------|---------|-----------------------|-----------------------|
|*---------|---------|---------12---------10-|----------9---------7-*|
|*-8-8-8-8-|-8-8-8-8-|-0-0-0-0-x--0-0-0-0--x-|-0-0-0-0--x-0-0-0-0-x-*|
|--8-8-8-8-|-8-8-8-8-|-0-0-0-0-10-0-0-0-0--8-|-0-0-0-0--7-0-0-0-0-5--|
|--8-8-8-8-|-8-8-8-8-|-0-0-0-0----0-0-0-0----|-0-0-0-0----0-0-0-0----|
P.M. - | P.M. - | P.M. - | P.M. - |

|---------|---------|---------|---------|
|---------|---------|---------|---------|
|---------|---------|---------|---------|
|-8-8-8-8-|-8-8-8-8-|-7-7-7-7-|-7-7-7-7-|
|-8-8-8-8-|-8-8-8-8-|-7-7-7-7-|-7-7-7-7-|
|-8-8-8-8-|-8-8-8-8-|-7-7-7-7-|-7-7-7-7-|

BRIDGE RIFF w/dist.
|--------|-------|-------------|--------|
|--------|-------|-------------|--------|
|*-------|-------|-------------|-------*|
|*-3-2-0-|-5-3-2-|-3-5-7-8-7-5-|-3-2-0-*|
|--3-2-0-|-5-3-2-|-3-5-7-8-7-5-|-3-2-0--|
|--3-2-0-|-5-3-2-|-3-5-7-8-7-5-|-3-2-0--|

Лучшие MP3 треки, добавленные в наш музыкальный каталог за 29/04/2017