Rancid - Out of Control - Скачать mp3 бесплатно

Guitar Tabs by: Rancid
Tabs for song: Out Of Control

Standard tuning w/distortion

Intro(guitar 1 after bass)
e----------------------------------
B----------------------------------
G--5---------66--------------------
D--3--3--66--66--------------------
A--3--3--66--44--------------------
E-----1--44------------------------

then......both guitars

Intro Pt.2
e-------------------------------------
B-------------------------------------
G--55-------66------------------------
D--55-33-66-66------------------------
A--33-33-66-44------------------------
E-----11-44---------------------------

Verse(guitar 1)
e--5-5-5-5-5-5-5----------------------- just a guess....repeat it
B--5-5-5-5-5-5-5-----------------------
G--------------------------------------
D--------------------------------------
A--------------------------------------
E--------------------------------------

Verse(guitar 2)
e--------------------------
B--------------------------
G--55-------66-------------
D--55-33-66-66-------------
A--33-33-66-44-------------
E-----11-44----------------
PM -----------

Mid verse(both guitars)
e----------------------------------------------
B----------------------------------------------
G--6--5-------5--4-----------------------------let the 2nd of each pair ring
D--6--5-------5--4---------6--5----------------
A--4--3-------3--2---------6--5----------------
E--------------------------4--3----------------

Go back to verse

Chorus(both guitars)
e---------------------------------------------------------
B---------------------------------------------------------
G--------------------------------------------------------- let 5 and 10 ring
D---6-5---------10---------------5---4--------xxxxxxxxxxx- 5 10
A---6-5---------10----x3---------5---4--------xxxxxxxxxxx- 3 8
E---4-3---------8----------------3---2--------xxxxxxxxxxx-

Intro Pt.2

Verse

Mid verse

Chorus

Outro(Intro Pt.2)

End on
e-----------
B-----------
G----5------
D----5------
A----3------
E-----------

Лучшие MP3 треки, добавленные в наш музыкальный каталог за 06/12/2016