Ottmar Liebert - Barcelona Nights - Скачать mp3 бесплатно

Barcelona Nights

Ottmar Liebert
Lead Guitar, Ottmar Liebert

E E Q S E S E E
E||--8--5-------5-7--8-7--5--|
B||--------------------------|
G||--------------------------|
D||--------------------------|
A||--------------------------|
E||--------------------------|

E E Q S E S E E
--7------------5--7-5-----|
-----8-------8---------8--|
--------------------------|
--------------------------|
--------------------------|
--------------------------|

E E Q S E S E E
--8--5-------5-7--8-7--5--|
--------------------------|
--------------------------|
--------------------------|
--------------------------|
--------------------------|

Q Q H
--7------------------|
---------------------|
---------------------|
---------------------|
---------------------|
---------------------|

E E Q S E S E E
--8--5-------5-7--8-7--5--|
--------------------------|
--------------------------|
--------------------------|
--------------------------|
--------------------------|

E E Q S E S E E
--7------------5--7-5-----|
-----8-------8---------8--|
--------------------------|
--------------------------|
--------------------------|
--------------------------|

E E Q S E S E E
--8--5-------5-7--8-7--5--|
--------------------------|
--------------------------|
--------------------------|
--------------------------|
--------------------------|

Q Q H
--7------------------|
---------------------|
---------------------|
---------------------|
---------------------|
---------------------|

E E Q S E S E E
--8--5-------5-7--8-7--5--|
--------------------------|
--------------------------|
--------------------------|
--------------------------|
--------------------------|

E E Q S E S E E
--7------------5--7-5-----|
-----8-------8---------8--|
--------------------------|
--------------------------|
--------------------------|
--------------------------|

E E Q S E S E E
--8--5-------5-7--8-7--5--|
--------------------------|
--------------------------|
--------------------------|
--------------------------|
--------------------------|

Q Q S E S S S E
--7---------10-8--7-L-8----|
---------------------------|
---------------------------|
---------------------------|
---------------------------|
---------------------------|

E E Q S E S E E
--8--5-------5-7--8-7--5--|
--------------------------|
--------------------------|
--------------------------|
--------------------------|
--------------------------|

E E Q S E S E E
--7------------5--7-5-----|
-----8-------8---------8--|
--------------------------|
--------------------------|
--------------------------|
--------------------------|

E E Q S E S E E
--8--5-------5-7--8-7--5--|
--------------------------|
--------------------------|
--------------------------|
--------------------------|
--------------------------|

|--3--| |--3--|
E E E E E E E E E E
--10--8--7--------------------------|
------------10--8--8--L--10--12-----|
------------------------------------|
------------------------------------|
------------------------------------|
------------------------------------|

E E Q S E S E E
|---8--5-------5-7--8-7--5--|
|---------------------------|
|*--------------------------|
|*--------------------------|
|---------------------------|
|---------------------------|

E E Q S E S E E
--7------------5--7-5-----|
-----8-------8---------8--|
--------------------------

Лучшие MP3 треки, добавленные в наш музыкальный каталог за 24/03/2017