Nirvana - Lake of Fire - Скачать mp3 бесплатно

Main Riff
Gm G5?F5 Bb5 Gm C5 Bb5
E|------------------------------------|
B|------------------------5b6r5b6r5-3-|
G|------------------------5b6r5b6r5-3-|
D|------------------------------------|
A|------------------------------------|
E|------------------------------------|

Gm G5?F5 Bb5 C5 F5 G5
E|---------------------------------------|
B|---------------------------------------|
G|----------------------5--5--5----------|
D|----------------------5--5--5--3--3--5-|
A|----------------------3--3--3--3--3--5-|
E|-------------------------------1--1--3-|

Gm F5 G5 Gm F5 G5
E|---------------------|---------------------------------------|
B|---------------------|----11~-11~-11~-11~-11~-11~?--6~--6~/8~|
G|---------------------|-/10--10~-10~-10~-10~-10~--?5~--5~--/7~|
D|-----------------3---|---------------------------------------|
A|-5-5-5-5-5-5-5-3-1-5-|---------------------------------------|
E|-3-3-3-3-3-3-3-1---3-|---------------------------------------|

Gm F Bb
Where do bad folks go when they die?
Gm C5 Bb
They don't go to heaven where the angels fly
Gm F Bb
They go down to the lake of fire and fry
C F Gm Gm F G F G5
Won't see 'em again till the fourth of july

Dm Bb
I knew a lady who came from duluth
Dm A
She got bit by a dog with a rabid tooth
Dm Bb
She went to her grave just a little too soon
C Dm Dsus2
And she flew away howling on the yellow moon

Лучшие MP3 треки, добавленные в наш музыкальный каталог за 04/12/2016