NIRVANA - The Man Who Sold the World - Скачать mp3 бесплатно

e:----------------------------------
B:---------------------------------
G:--2-----2-2---0-------2h3p2---0-
D:----------------------------------
A:----------------------------------
E:----------------------------------

e:--------------------------
B:---------------------------
G:-2-0------------- -------
D:----- 3-2-0-------------
A:--------------------------
E:--------------------------

We passed along the

A Dm
stairs spoke of was and when Altho' I
A F
wasn't there he said I was his friend which came
G A
as a surprise I spoke into his eyes I thought
Dm
you died alone a long long time ago
C F
oh...no not me we never lost control,
C F
you're face to face with the man who sold the world....
e:----------------------------------
B:---------------------------------
G:--2-----2-2---0-------2h3p2---0-
D:----------------------------------
A:----------------------------------
E:----------------------------------
e:--------------------------
B:-----------------------1--
G:-2-0------------- -------
D:----- 3-2-0-------------
A:--------------------------
E:--------------------------
A
I laughed and shook his hand
Dm A
and made my way back home I searched for form and land
F G
for years & years I roamed I gazed a gazely stare
A Dm
way more than a million years, I must have died alone a
A C
long long time ago Who knows?
F C
Not me, I never lost control, you're face to face,
F
with the man who sold the world



C
Who knows? not me,
F C
We never lost control you're face to face
F
With the man who sold the world..
e:----------------------------------
B:---------------------------------
G:--2-----2-2---0-------2h3p2---0-
D:----------------------------------
A:----------------------------------
E:----------------------------------
Solo
G:-- 2-----2-2---0-------2h3p2---0- --8-9-8--2-----2-2---0-------2h3p2---10-9-7-9

Лучшие MP3 треки, добавленные в наш музыкальный каталог за 03/12/2016