John Murphy - In The House In A Heartbeat - Скачать mp3 бесплатно

Riff 1
G -|----|
D -|----|
A -|-1~-|
E -|----|

Riff 2
G -|------------------|------------------|----------------------------|
D -|------------------|------------------|----------------------------|
A -|-5-5-5-55555-5-55-|-1-1-1-11111-1-11-|----------------------------|
E -|------------------|------------------|-1-1-1-11111-1-11-0-0-0-0-0-|
| x2 | x2 | x1 |

Riff 3
G -|------------------|------------------|------------------|------------------|
D -|------------------|------------------|------------------|------------------|
A -|-5-5-5-55555-5-55-|-1-1-1-11111-1-11-|------------------|------------------|
E -|------------------|------------------|-1-1-1-11111-1-11-|-3-3-3-33333-3-33-|
| x2 | x2 | x2 | x2 |

Riff 4
G -|------------------|------------------|------------------|------------------|
D -|------------------|------------------|------------------|------------------|
A -|-5-5-5-55555-5-55-|-1-1-1-11111-1-11-|------------------|------------------|
E -|------------------|------------------|-1-1-1-11111-1-11-|-0-0-0-00000-0-00-|
| x2 | x2 | x2 | x2 |

Riff 5
G -|------------------|------------------|------------------|------------------|------------|
D -|------------------|------------------|------------------|------------------|------------|
A -|-5-5-5-55555-5-55-|-1-1-1-11111-1-11-|------------------|------------------|------------|
E -|------------------|------------------|-1-1-1-11111-1-11-|-0-0-0-00000-0-00-|-0-0-0-00-0-|
| x2 | x2 | x2 | x1 | x1 |

Song Structure:
Riff 1: 0:06 x1
Riff 2: 0:13 x1
Riff 3: 0:30 x2
Riff 4: 1:22 x1
Riff 3: 1:48 x1
Riff 4: 2:13 x1
Riff 3: 2:39 x1
Riff 5: 3:04 x1

Лучшие MP3 треки, добавленные в наш музыкальный каталог за 23/08/2017