Green Day - The Simpsons Theme - Скачать mp3 бесплатно

C5 C5
|---------------------------|---------------------------|
|---5-7-b10-8-5-------------|---5-7-b10-8-5-------------|
|-5------------5------------|-5------------5------------|
|----------------7-4-4-4-5~-|----------------7-4-4-4-5~-|
|---------------------------|---------------------------|
|---------------------------|---------------------------|

B5 B5
|---------------------------|---------------------------|
|---4-6-b9-7-4--------------|---4-6-b9-7-4--------------|
|-4-----------4-------------|-4-----------4-------------|
|----------------6-3-3-3-4~-|----------------6-3-3-3-4~-|
|---------------------------|---------------------------|
|---------------------------|---------------------------|

E E
|------------------------------|------------------------------|
|---9-11-b14-12-9--------------|---9-11-b14-12-9--------------|
|-9--------------9-------------|-9--------------9-------------|
|------------------11-8-8-8-9~-|------------------11-8-8-8-9~-|
|------------------------------|------------------------------|
|------------------------------|------------------------------|

C5
|---------------------------|---------------------------|
|---5-7-10-8-5--------------|---5-7-10-8-5--------------|
|-5------------5------------|-5------------5------------|
|----------------7-4-4-4-5~-|----------------7-4-4-4-5~-|
|---------------------------|---------------------------|
|---------------------------|---------------------------|
Guitar 2
|---------------------------|---------------------------|-------------|
|---------------------------|---------------------------|-------------|
|-5-------------------------|----5----------------------|-55555555555-|
|-5-------------------------|----5----------------------|-55555555555-|
|-3-------------------------|----3----------------------|-33333333333-|
|---------------------------|-15/(C chord octive)-------|-------------|
Palm Mute ***********

Guitar 1
|------|------|------|------|------|------|------|------|------|------|
|-11---|-11---|-11---|-11---|-11---|-11---|-11---|-11---|-11---|-11---|
|----8-|----8-|----8-|----8-|----8-|----8-|----8-|----8-|----8-|----8-|
|------|------|------|------|------|------|------|------|------|------|
|------|------|------|------|------|------|------|------|------|------|
|------|------|------|------|------|------|------|------|------|------|
Guitar 2
|------|------|------|------|------|------|------|------|------|------|
|------|------|------|------|------|------|------|------|------|------|
|-8888-|-8888-|-8888-|-8888-|-8888-|-8888-|-8888-|-8888-|-8888-|-8888-|
|-8888-|-8888-|-8888-|-8888-|-8888-|-8888-|-8888-|-8888-|-8888-|-8888-|
|-6666-|-6666-|-6666-|-6666-|-6666-|-6666-|-6666-|-6666-|-6666-|-6666-|
|------|------|------|------|------|------|------|------|------|------|
PM**** **** **** **** **** **** **** **** ****
Start to release on P.M
|------|------|------|------|------|
|-11---|--8h11|-11h14|-11h14|----16|
|----8-|8-----|------|------|------|
|------|------|------|------|------|
|------|------|------|------|------|
|------|------|------|------|------|
Guitar 2
|------|------|------|------|------|
|------|------|------|------|------|
|-8----|-8888-|-8888-|-8888-|-8888-|
|------|-8888-|-8888-|-8888-|-8888-|
|------|-6666-|-6666-|-6666-|-6666-|
|------|------|------|------|------|

E E
|------------------------------|------------------------------|
|---9-11-b14-12-9--------------|---9-11-b14-12-9--------------|
|-9--------------9-------------|-9--------------9-------------|
|------------------11-8-8-8-9~-|------------------11-8-8-8-9~-|
|------------------------------|-------------------------

Лучшие MP3 треки, добавленные в наш музыкальный каталог за 21/01/2017