Eric Johnson - Cliffs Of Dover - Скачать mp3 бесплатно

Greatest Guitar Solos

Play this song in standard tuning.

Intro:

|------15b17==(15)b18====(15)r-:-15-12-14----12------------------:
|------------------------------:----------15----12-15b17==(15)r--:
|------------------------------:---------------------------------:
|------------------------------:---------------------------------:
|------------------------------:---------------------------------:
|-0----------------------------:---------------------------------:

|-12--------------------------12-15-14p12----14-15--------:
|----15p12--------------12-15-------------15-------15-12--:
|----------14b16==(14)r-----------------------------------:
|---------------------------------------------------------:
|---------------------------------------------------------:
|---------------------------------------------------------:

|----12--------------------------------------------------------------:
|-15----15p12----15p12--------------15p12--------------------------5-:
|-------------14-------14b16==(14)r-------14b16==(14)r(14)p12----7---:
|-------------------------------------------------------------14-----:
|--------------------------------------------------------------------:
|--------------------------------------------------------------------:

|---5-7-6-5-----------------------------:
|-8---------8-5---5-7---5-3-------------:
|---------------7-----4-----4p2---4-2---:
|-------------------------------5-------:
|---------------------------------------:
|---------------------------------------:

|-----------------------------:-----------------------:
|-----------------------------:----8b10==(8)r=(8)-----:
|-----------------------------:-----------------------:
|-5-2---5-2-----2-------------:-----------------------:
|-----5-----5-2---5-2---------:-----------------------:
|---------------------5-3b3.5-:-0---------------------:

|------------------7----8s10-(10)-8----:
|-----5-----7s8-10---10-------------12-:
|--------------------------------------:
|---7-----9----------------------------:
|-3-----5------------------------------:
|--------------------------------------:

|-------------------:-----------------------------15-(15)-15-:
|-------12-------13-:--------15-------17-------19------------:
|-------------------:----------------------------------------:
|----14-------14----:-----17-------17-------19---------------:
|-10-------12-------:-/14-------15-------17------------------:
|-------------------:----------------------------------------:

|----15----15----15----15----15----15----15----15-:
|-19----------------------------17----19----------:
|-------19----------------17----------------19----:
|-------------19----17----------------------------:
|-------------------------------------------------:
|-------------------------------------------------:

|----15----15----15----15----15----15----15----15-:
|-------------------17----19----------------17----:
|-------------17----------------19----17----------:
|-19----17----------------------------------------:
|-------------------------------------------------:
|-------------------------------------------------:

|----15----15----15----15----17-15----15-19-17-15-:
|-19----------------17----19-------19-------------:
|-------19----17----------------------------------:
|-------------------------------------------------:
|-------------------------------------------------:
|-------------------------------------------------:

|----17-15----------------------------------------------------------------------:
|-19-------19-15----17-15-------------------------------------------------------:
|----------------17-------17-14----16-14----------16-14----------16-14----------:
|-------------------------------17-------17-14----------17-14----------17-14----:
|----------------------------------------------17-------------17-------------17-:
|-----------------------------

Лучшие MP3 треки, добавленные в наш музыкальный каталог за 05/12/2016