Bullet For My Valentine - No Control - Скачать mp3 бесплатно

Intro:
F|-------------------------------------------|
C|-------------------------------------------|
G|----------------------------------3/5-3/5--|
C|---0----0----0----0----0----0-------------|

Verse:
F|-------------------------------------------|
C|-------------------------------------------|
G|---------------------8-------3--3/5-3/5-|
C|---000000000000-00000-00---------|

F|-------------------------------------------|
C|-------------------------------------------|
G|---------------------8-------3--3/5-3/5-|
C|---000000000000-00000-00---------|

F|-------------------------------------------|
C|-------------------------------------------|
G|---------------------8-------3--3/5-3/5-|
C|---000000000000-00000-00---------|

F|-------------------------------------------|
C|-------------------------------------------|
G|-----------------------8------3--3/5-3/5-|
C|---000-000-000-00-00000-00--------|

Pre Chorus:
F|-------------------------------------------|
C|-------------------------------------------|
G|-------------------------------------------|
C|----00----00----00--------00----00----00---|

Chorus:
F|-------------------------------------------------------------|
C|-------------------------------------------------------------|
G|-------------------------------------------------------------|
C|-8-8-8-8-8-8-8-8-10-10-10-10-10-10-10-10-8-8-8-8-8-8-8-8-12~-|

Repeat Verse

Repeat PreChorus

Repeat Chorus x2

Bridge:
F|---------------------------------------------|
C|---------------------------------------------|
G|---------------------------------------------| x2
C|--00---00---00-------00---00-0000000000--00--|
..........

Interlude:
F|-------------------------------|
C|-------------------------------|
G|-------------------------------| x3
C|--00-00-000-00-00-0000--00-----|

repeat chorus x2

Outro
F|---------------------------|
C|---------------------------|
G|---------------------------|
C|---00-------00------00-----|

Лучшие MP3 треки, добавленные в наш музыкальный каталог за 23/01/2017