Сплин - Ленинград-Амстердам - Скачать mp3 бесплатно

С G
e|------------------------------------------------|
B|-------1----1----1-------------0-----0-----0----|
G|-----0----0----0---0---------0-----0-----0---0--|
D|---2----2----2-------2-----0-----0-----0-------0|
A|3-----------------------------------------------|
E|------------------------3-----------------------|

С G
e|------------3------------------------3----------|
B|-------1---------1-------------0-----------0----|
G|-----0----0----0---0---------0-----0-----0---0--|
D|---2----2----2-------2-----0-----0-----0-------0|
A|3-----------------------------------------------|
E|------------------------3-----------------------|

G C
Здесь на земле ярки краски и звучны аккорды
D G
Прямо на площади высится башенный кран
C G
В башне сидит крановщица с улыбкой Джоконды
D G
В небе летит самолет Ленинград - Амстердам

Бабушка вяжет носки непутевому внуку
Папа с работы картошки несет килограмм
Внук догрызает гранит, проклиная науку
В небе летит самолет Ленинград-Амстердам

C G
На глубине в 10000 сомнительных метра
C G
Над тем кто забыл пристигнуться колдуют врачи
Am Em
Если ты знаешь чьи-то секреты
Dsus4 G
- молчи.

Люди смеются, приветливо машут руками
Быстро танцуют, потом поднимают сто грамм
Там возле яркого солнца, сверкая крылами
В небе летит самолет "Ленинград-Амстердам"

Жизнь представляется мне заводной каруселью
Что будет крутиться, пока кто-то дернет стоп-кран
Там, за июльским дождем, за февральской метелью
В небе летит самолет "Ленинград-Амстердам"

Dsus4
e |3-|
B |3-|
G |2-|
D |0-|
A |x-|
E |x-|

Лучшие MP3 треки, добавленные в наш музыкальный каталог за 28/05/2017