Ария - Беспечный ангел (минус на пианино) - Скачать mp3 бесплатно

Вступление (Аккорды - (Em C G) - 2 раза)



E-----------------------------------------------------------------------------------------------------------------------3--------|

H-----------------0-------------1----------------3---------------3-------------------0-------------1----------------0---0------|

G---------------0---0---------0-----0---0-----0-----0---0-----0-------------------0--0---------0-----0---0-----0-------0----|

D-------0-----2-------2-----2-----2---2-----0-----0---0-----0-----------0------2-------2-----2-----2---2-----0-----------0--|

A---0-2-----2-----------2-3-----------------------------------------0-2-------2-----------2-3----------------------------------|

E-3-------0-------------------------------3---------------3--------3----------0-------------------------------3----------------3|



1 КУПЛЕТ (Аккорды - Em C G Em C D Am D G Am D Em C D)

Этот парень был из тех, кто просто любит жизнь,

E--------------------------------------------------------------------

H-----------------0-------------1---------------3---------------3---

G---------------0---0---------0-----0---0-----0-----0---0-----0---

D-------0-----2-------2-----2-----2---2-----0-----0---0-----0-----

A---0-2-----2-----------2-3----------------------------------------

E-3-------0-------------------------------3---------------3---------

Любит праздники и громкий смех, пыль дорог и ветра свист,

E-----------------------------------------------2-3-2-----------2-0-----0

H-----------------0-------------1-------------3-------3-------3-----3----

G---------------0---0---------0-----0---0---2-----------2---2---------2-

D-------0-----2-------2-----2-----2---2---0---------------0--------------

A---0-2-----2-----------2-3-----------------------------------------------

E-3-------0----------------------------------------------------------------

Он был везде и всегда своим, влюблял в себя целый свет

E---------0---------------3-------------2-3-2--------------0------

H-------1---1-----------0---0---------3-------3----------1---1----

G-----2-------2-------0-------0-----2-----------2------2-------2--

D---2-----------2---0-----------2-0------------------2-----------2

A-0------------------------------------------------0--------------

E-----------------3-----------------------------------------------

И гнал свой байк, а не лимузин, таких друзей больше нет!

E-------2-3-2-------------0---------------0--------2--3-3-3-2------

H-----3-------3---------0---0-----------1---1-----3--3-3-3-3------

G---2-----------2-----0-------0-------0-------0---2--2-2-2-2------

D-0-----------------2-----------2---2-----------2-0-----------------

A---------------------------------3----------------------------------

E-----------------0--------------------------------------------------

2 куплет (играется так же, как и 1-ый)

И в гостиной при свечах он танцевал, как Бог,

Но зато менялся на глазах, только вспомнит шум дорог,

Все, что имел, тут же тратил, и за порог сделав шаг,

Мой друг давал команду братьям, вверх поднимая кулак!

Припев(играется боем):

Em C D

Ты - летящий вдаль, вдаль ангел,

C H7 Em

Ты летящий вдаль, вдаль ангел,

C D

Ты один другу друг, друг на все времена,

C D

Не много таких среди нас!

Am C G

Ты летящий вдаль, беспечный ангел!



Проигрыш(играется также, как вступление)



3 куплет (играется так же, как и 1-ый)

Под гитарный жесткий рок, который так любил,

На ХАРЛЕЕ он домчать нас мог до небес и звезд любых,

Но он исчез, и никто не знал, куда теперь мчит его байк,

Один бродяга нам сказал, что он отправился в Рай!

Лучшие MP3 треки, добавленные в наш музыкальный каталог за 05/12/2016